на главнуюВсе эхи GUITAR.SONGS
войти ?

Serial Experiments Lain - Ballad of Silly-Bird

От Vladislav Korotnev (2:5020/12000.64) к All

В ответ на Заголовок предыдущего сообщения в треде (Имя Автора)



Привет, All!

Подобрал сабж. Hа точность не претендую, но может кому-то поможет.

Nakaido "Chabo" Reichi (Serial Experiments Lain) - Ballad of Silly-Bird

68 BPM

E |--10-------8----------------|----------------------------|
B |--------8-----10------------|-----------10L10------------|
G |----------------------------|--7--10---------------------|
D |----------------------------|----------------------------|
A |----------------------------|----------------------------|
E |----------------------------|----------------------------|


--10-------8----------------|----------------------------|
--------8-----10------------|----------------------------|
----------------------------|--7--10----7L-7-------------|
----------------------------|----------------------------|
----------------------------|----------------------------|
----------------------------|----------------------------|


--10-------8----------------|----------------------------|
--------8-----10------------|-----------10L10------------|
----------------------------|--7--10---------------------|
----------------------------|----------------------------|
----------------------------|----------------------------|
----------------------------|----------------------------|


--10-------8----------------|----------------------------|--8-----13-12---|
--------8-----10------------|----------------------------|----------------|
----------------------------|--7--7-----7L----7----------|----------------|
----------------------------|----------------------------|----------------|
----------------------------|----------------------------|----------------|
----------------------------|----------------------------|----------------|



--10L---10------|--8-----------13----12------|--10L---10----||-----------6----|
----------------|----------------------------|--------------||--5-------------|
----------------|----------------------------|-------------o||--------5-------|
----------------|----------------------------|-------------o||----------------|
----------------|----------------------------|--------------||----------------|
----------------|----------------------------|--------------||----------------|


--3-------------------------------------------------|-----------10---|--8---|||
----------------------------------------------------|----------------|------|||
-----------------------------------------------5s---|--9-----7-------|-----o|||
----------------------------------------------------|----------------|-----o|||
----------------------------------------------------|----------------|------|||
----------------------------------------------------|----------------|------|||

С наилучшими пожеланиями, Vladislav.

--- ------
* Origin: А мне птичка на голову хакнула... (2:5020/12000.64)

Ответы на это письмо:

From: Username
Заголовок следующего сообщения в треде может быть длинным и его придется перенести на новую строку

From: Username
Или коротким

FGHI-url этого письма: area://GUITAR.SONGS?msgid=2:5020/12000.64+59086662