на главнуюВсе эхи GUITAR.SONGS
войти ?

Re: Money For Nothing

От Alexandr Kruglikov (2:5053/58) к Stanislav Parshin

В ответ на Заголовок предыдущего сообщения в треде (Имя Автора)


Привет, Stanislav!

02 авг 18 19:32, Stanislav Parshin писал(а) к All:

SP> Ищу табы на забористый рифачок)

Нопфлер - наше всё!

З.Ы. (Замечу Ышо): Основной рифф композиции был засемплирован в песне ?Поговори с ней о сексе? российской хип-хоп группы "Мальчишник" ;)

Intro

E|---------------------------------------------------------------------|
B|-------------6-------------------------------------------------------|
G|-7--5--h7---------7--5---3--h2-0--0--2--0---2---4-----h2---0---------|
D|-5--5---5---------5--5---3--h2-0--0--2--0---2---4-----h2---0---------|
A|---------------------------------------------------------------------|
E|---------------------------------------------------------------------|

E|---------------------------------------------------------------------|
B|-----------------------6---------------------------------------0-----|
G|-7--5--h7----7--5--h7-------h7--3--h2-0--0--2--0---------------0-----|
D|-5--5---5----5--5---5--------5--3--h2-0--0--2--0--2--h4--h2----------|
A|--------------------------------------------------2--h4--h2----------|
E|---------------------------------------------------------------------|

1st Verse

E|---------------------------------------------------------------------|
B|---------------------------------------------------------------------|
G|0--0--0--0--0--0--3--h2--0--2--0--2--4--h2--0------------------------|
D|0--0--0--0--0--0--3--h2--0--2--0--2--4--h2--0------------------------|
A|---------------------------------------------------------------------|
E|---------------------------------------------------------------------|

E|---------------------------------------------------------------------|
B|---------------------------------------------------------------------|
G|0--0--0--0--0--0--3--h2--0--2--0------------0------------------------|
D|0--0--0--0--0--0--3--h2--0--2--0--2--4--h2--0------------------------|
A|-----------------------------------2-4--h2---------------------------|
E|---------------------------------------------------------------------|

E|---------------------------------------------------------------------|
B|-------------6-------------------------------------------------------|
G|-7--5--h7---------7--5---3--h2-0--0--2--0---2---4-----h2---0---------|
D|-5--5---5---------5--5---3--h2-0--0--2--0---2---4-----h2---0---------|
A|---------------------------------------------------------------------|
E|---------------------------------------------------------------------|

E|---------------------------------------------------------------------|
B|------------------------6--------------------------------------0-----|
G|-7--5--h7----7--5--h7-------h7--3--h2-0--0--2--0---------------0-----|
D|-5--5---5----5--5---5--------5--3--h2-0--0--2--0--2--h4--h2----------|
A|--------------------------------------------------2--h4--h2----------|
E|---------------------------------------------------------------------|

Chorus

E|---------------------------------------------------------------------|
B|---------------------------------------------------------------------|
G|---------------------------------------------------------------------|
D|------8--8--8--8--8--------------------------------------------------|
A|------6--6--6--6--6------8--8--8--8--8--8--8-------------------------|
E|-------------------------6--6--6--6--6--6--6-------------------------|

E|---------------------------------------------------------------------|
B|---------------------------------------------------------------------|
G|---------------------------------------------------------------------|
D|------8--8--8--8--8-----10--10--10--10--10--10--10--10---------------|
A|------6--6--6--6--6------8---8---8---8---8---8---8---8---------------|
E|---------------------------------------------------------------------|

E|---------------------------------------------------------------------|
B|-------------6-------------------------------------------------------|
G|-7--5--h7---------7--5---3--h2-0-------------------------------------|
D|-5--5---5---------5--5---3--h2-0-------------------------------------|
A|---------------------------------------------------------------------|
E|---------------------------------------------------------------------|

E|-----0----0---0---0----0------2----2----2----2---2-------------------|
B|-----1----1---1---1----1------3----3----3----3---3-------------------|
G|-----0----0---0---0----0------2----2----2----2---2-------------------|
D|-----2----2---2---2----2---------------------------------------------|
A|-----3----3---3---3----3---------------------------------------------|
E|---------------------------------------------------------------------|

E|---------------------------------------------------------------------|
B|---------------------------------------------------------------------|
G|----1--1--1--1--1--1--1--1--1--1--1--1--1--1-------------------------|
D|----2--2--2--2--2--2--2--2--2--2--2--2--2--2-------------------------|
A|----2--2--2--2--2--2--2--2--2--2--2--2--2--2-------------------------|
E|---------------------------------------------------------------------|

2nd Verse

E|---------------------------------------------------------------------|
B|-------------6-------------------------------------------------------|
G|-7--5--h7---------7--5---3--h2-0--0--2--0---2---4-----h2---0---------|
D|-5--5---5---------5--5---3--h2-0--0--2--0---2---4-----h2---0---------|
A|---------------------------------------------------------------------|
E|---------------------------------------------------------------------|

E|---------------------------------------------------------------------|
B|---------------------------------------------------------------------|
G|--3--h2---h3----h2---h3---h2----h3---3-------------------------------|
D|--3--h2---h3----h2---h3---h2----h3---3-------------------------------|
A|---------------------------------------------------------------------|
E|---------------------------------------------------------------------|

Chorus

E|---------------------------------------------------------------------|
B|---------------------------------------------------------------------|
G|---------------------------------------------------------------------|
D|------8--8--8--8--8--------------------------------------------------|
A|------6--6--6--6--6------8--8--8--8--8--8--8-------------------------|
E|-------------------------6--6--6--6--6--6--6-------------------------|

E|---------------------------------------------------------------------|
B|---------------------------------------------------------------------|
G|---------------------------------------------------------------------|
D|------8--8--8--8--8-----10--10--10--10--10--10--10--10---------------|
A|------6--6--6--6--6------8---8---8---8---8---8---8---8---------------|
E|---------------------------------------------------------------------|

E|---------------------------------------------------------------------|
B|-------------6-------------------------------------------------------|
G|-7--5--h7---------7--5---3--h2-0-------------------------------------|
D|-5--5---5---------5--5---3--h2-0-------------------------------------|
A|---------------------------------------------------------------------|
E|---------------------------------------------------------------------|

E|-----0----0---0---0----0------2----2----2----2---2-------------------|
B|-----1----1---1---1----1------3----3----3----3---3-------------------|
G|-----0----0---0---0----0------2----2----2----2---2-------------------|
D|-----2----2---2---2----2---------------------------------------------|
A|-----3----3---3---3----3---------------------------------------------|
E|---------------------------------------------------------------------|

E|---------------------------------------------------------------------|
B|---------------------------------------------------------------------|
G|----1--1--1--1--1--1--1--1--1--1--1--1--1--1-------------------------|
D|----2--2--2--2--2--2--2--2--2--2--2--2--2--2-------------------------|
A|----2--2--2--2--2--2--2--2--2--2--2--2--2--2-------------------------|
E|---------------------------------------------------------------------|

This is played after the chorus.

E|---------------------------------------------------------------------|
B|-------------6-------------------------------------------------------|
G|-7--5--h7---------7--5---3--h2-0--0--2--0---2---4-----h2---0---------|
D|-5--5---5---------5--5---3--h2-0--0--2--0---2---4-----h2---0---------|
A|---------------------------------------------------------------------|
E|---------------------------------------------------------------------|

E|---------------------------------------------------------------------|
B|-----------------------b6---------------------------------------0----|
G|-7--5--h7----7--5--h7------7--5---3--h2-0--0--2--0--------------0----|
D|-5--5---5----5--5---5------5--5---3--h2-0--0--2--0--2--h4--h2--------|
A|----------------------------------------------------2--h4--h2--------|
E|---------------------------------------------------------------------|

Chorus

E|---------------------------------------------------------------------|
B|---------------------------------------------------------------------|
G|---------------------------------------------------------------------|
D|------8--8--8--8--8--------------------------------------------------|
A|------6--6--6--6--6------8--8--8--8--8--8--8-------------------------|
E|-------------------------6--6--6--6--6--6--6-------------------------|

E|---------------------------------------------------------------------|
B|---------------------------------------------------------------------|
G|---------------------------------------------------------------------|
D|------8--8--8--8--8-----10--10--10--10--10--10--10--10---------------|
A|------6--6--6--6--6------8---8---8---8---8---8---8---8---------------|
E|---------------------------------------------------------------------|

E|---------------------------------------------------------------------|
B|-------------6-------------------------------------------------------|
G|-7--5--h7---------7--5---3--h2-0-------------------------------------|
D|-5--5---5---------5--5---3--h2-0-------------------------------------|
A|---------------------------------------------------------------------|
E|---------------------------------------------------------------------|

E|-----0----0---0---0----0------2----2----2----2---2-------------------|
B|-----1----1---1---1----1------3----3----3----3---3-------------------|
G|-----0----0---0---0----0------2----2----2----2---2-------------------|
D|-----2----2---2---2----2---------------------------------------------|
A|-----3----3---3---3----3---------------------------------------------|
E|---------------------------------------------------------------------|

E|---------------------------------------------------------------------|
B|---------------------------------------------------------------------|
G|----1--1--1--1--1--1--1--1--1--1--1--1--1--1-------------------------|
D|----2--2--2--2--2--2--2--2--2--2--2--2--2--2-------------------------|
A|----2--2--2--2--2--2--2--2--2--2--2--2--2--2-------------------------|
E|---------------------------------------------------------------------|

3rd Verse

E|---------------------------------------------------------------------|
B|---------------------------------------------------------------------|
G|0--0--0--0--0--0--3--h2--0--2--0--2--4--h2--0------------------------|
D|0--0--0--0--0--0--3--h2--0--2--0--2--4--h2--0------------------------|
A|---------------------------------------------------------------------|
E|---------------------------------------------------------------------|

E|---------------------------------------------------------------------|
B|---------------------------------------------------------------------|
G|0--0--0--0--0--0--3--h2--0--2--0--------------0----------------------|
D|0--0--0--0--0--0--3--h2--0--2--0--2--4--h2----0----------------------|
A|-----------------------------------2-4--h2---------------------------|
E|---------------------------------------------------------------------|

E|---------------------------------------------------------------------|
B|-------------6-------------------------------------------------------|
G|-7--5--h7---------7--5---3--h2-0--0--2--0---2---4-----h2---0---------|
D|-5--5---5---------5--5---3--h2-0--0--2--0---2---4-----h2---0---------|
A|---------------------------------------------------------------------|
E|---------------------------------------------------------------------|

E|---------------------------------------------------------------------|
B|-------------------------6------------------------------------0------|
G|-7--5--h7----7--5--h7-------h7--3--h2-0--0--2--0--------------0------|
D|-5--5---5----5---5--5--------5--3--h2-0--0--2--0--2--h4--h2----------|
A|--------------------------------------------------2--h4--h2----------|

Chorus

E|---------------------------------------------------------------------|
B|---------------------------------------------------------------------|
G|---------------------------------------------------------------------|
D|------8--8--8--8--8--------------------------------------------------|
A|------6--6--6--6--6------8--8--8--8--8--8--8-------------------------|
E|-------------------------6--6--6--6--6--6--6-------------------------|

E|---------------------------------------------------------------------|
B|---------------------------------------------------------------------|
G|---------------------------------------------------------------------|
D|------8--8--8--8--8-----10--10--10--10--10--10--10--10---------------|
A|------6--6--6--6--6------8---8---8---8---8---8---8---8---------------|
E|---------------------------------------------------------------------|

E|---------------------------------------------------------------------|
B|-------------6-------------------------------------------------------|
G|-7--5--h7---------7--5---3--h2-0-------------------------------------|
D|-5--5---5---------5--5---3--h2-0-------------------------------------|
A|---------------------------------------------------------------------|
E|---------------------------------------------------------------------|

E|-----0----0---0---0----0------2----2----2----2---2-------------------|
B|-----1----1---1---1----1------3----3----3----3---3-------------------|
G|-----0----0---0---0----0------2----2----2----2---2-------------------|
D|-----2----2---2---2----2---------------------------------------------|
A|-----3----3---3---3----3---------------------------------------------|
E|---------------------------------------------------------------------|

E|---------------------------------------------------------------------|
B|---------------------------------------------------------------------|
G|----1--1--1--1--1--1--1--1--1--1--1--1--1--1-------------------------|
D|----2--2--2--2--2--2--2--2--2--2--2--2--2--2-------------------------|
A|----2--2--2--2--2--2--2--2--2--2--2--2--2--2-------------------------|
E|---------------------------------------------------------------------|

This part is played after the chorus.

E|---------------------------------------------------------------------|
B|-------------6-------------------------------------------------------|
G|-7--5--h7---------7--5---3--h2-0--0--2--0---2---4-----h2---0---------|
D|-5--5---5---------5--5---3--h2-0--0--2--0---2---4-----h2---0---------|
A|---------------------------------------------------------------------|
E|---------------------------------------------------------------------|

E|---------------------------------------------------------------------|
B|---------------6----------------------------------------------0------|
G|-7--7--7--5-7-----7---5-----3--h2-0--0--2--0------------------0------|
D|-5--5--5--5-5-----5---5-----3--h2-0--0--2--0--2--h4--h2--------------|
A|----------------------------------------------2--h4--h2--------------|
E|---------------------------------------------------------------------|

Ending

E|---------------------------------------------------------------------|
B|-------------6-------------------------------------------------------|
G|-7--5--h7---------7--5---3--h2-0--0--2--0---2---4-----h2---0---------|
D|-5--5---5---------5--5---3--h2-0--0--2--0---2---4-----h2---0---------|
A|---------------------------------------------------------------------|
E|---------------------------------------------------------------------|

E|---------------------------------------------------------------------|
B|------------------------6-------------------------------------0------|
G|-7--5--h7----7--5--h7-------h7--3--h2-0--0--2--0--------------0------|
D|-5--5---5----5---5--5--------5--3--h2-0--0--2--0--2--h4--h2----------|
A|--------------------------------------------------2--h4--h2----------|
E|---------------------------------------------------------------------|

Repeat the above part many times.

6 minutes and 51 seconds into the song,
Mark Knopfler plays this part once:

E|---------------------------------------------------------------------|
B|---------------------------------------------------------------------|
G|----0--7--0--7---0--7----2--4--2--0----------------------------------|
D|----0--5--0--5---0--5----2--4--2--0----------------------------------|
A|---------------------------------------------------------------------|
E|---------------------------------------------------------------------|

E|---------------------------------------------------------------------|
B|------------------------6-------------------------------------0------|
G|-0--7--5--h7--7--5--h7------h7--3--h2-0--0--2--0--------------0------|
D|-0--5--5--5---5--5---5-------5--3--h2-0--0--2--0-2--h4--h2-----------|
A|-------------------------------------------------2--h4--h2-----------|
E|---------------------------------------------------------------------|

Play the below part until the end and fade.

E|---------------------------------------------------------------------|
B|-------------6-------------------------------------------------------|
G|-7--5--h7---------7--5---3--h2-0--0--2--0---2---4-----h2---0---------|
D|-5--5---5---------5--5---3--h2-0--0--2--0---2---4-----h2---0---------|
A|---------------------------------------------------------------------|
E|---------------------------------------------------------------------|

E|---------------------------------------------------------------------|
B|-----------------------6-------------------------------------0-------|
G|-7--5--h7----7--5--h7------h7--3--h2-0--0--2--0--------------0-------|
D|-5--5---5----5--5---5-------5--3--h2-0--0--2--0--2--h4--h2-----------|
A|-------------------------------------------------2--h4--h2-----------|
E|---------------------------------------------------------------------|

С наилучшими пожеланиями, Alexandr.

--- "GoldED+/LNX 1.1.5-b20170303" ---
* Origin: LSD will make your CGA display 16.2 million colors (2:5053/58)

Ответы на это письмо:

From: Username
Заголовок следующего сообщения в треде может быть длинным и его придется перенести на новую строку

From: Username
Или коротким

FGHI-url этого письма: area://GUITAR.SONGS?msgid=2:5053/58+5b632f2c